ISO-10303-21;
HEADER;
/* Generated by software containing ST-Developer
 * from STEP Tools, Inc. (www.steptools.com) 
 */

FILE_DESCRIPTION(
/* description */ (''),
/* implementation_level */ '2;1');

FILE_NAME(
/* name */ '\\\\SERVER1\\dwgs\\product\\Screws\\14141-M.stp',
/* time_stamp */ '2015-12-03T17:48:23-05:00',
/* author */ ('cridley'),
/* organization */ (''),
/* preprocessor_version */ 'ST-DEVELOPER v15.6',
/* originating_system */ 'Autodesk Inventor 2015',
/* authorisation */ '');

FILE_SCHEMA (('CONFIG_CONTROL_DESIGN'));
ENDSEC;

DATA;
#10=MECHANICAL_DESIGN_GEOMETRIC_PRESENTATION_REPRESENTATION('',(#13),#425);
#11=SHAPE_REPRESENTATION_RELATIONSHIP('SRR','None',#437,#12);
#12=ADVANCED_BREP_SHAPE_REPRESENTATION($,(#14),#424);
#13=STYLED_ITEM('',(#446),#14);
#14=MANIFOLD_SOLID_BREP('Solid1',#232);
#15=CYLINDRICAL_SURFACE('',#249,0.4375);
#16=LINE('',#389,#28);
#17=LINE('',#391,#29);
#18=LINE('',#392,#30);
#19=LINE('',#395,#31);
#20=LINE('',#396,#32);
#21=LINE('',#399,#33);
#22=LINE('',#400,#34);
#23=LINE('',#412,#35);
#24=LINE('',#413,#36);
#25=LINE('',#416,#37);
#26=LINE('',#417,#38);
#27=LINE('',#419,#39);
#28=VECTOR('',#279,0.505786251317535);
#29=VECTOR('',#280,0.227303255586467);
#30=VECTOR('',#281,0.505786251317535);
#31=VECTOR('',#284,0.505786251317535);
#32=VECTOR('',#285,0.227303255586467);
#33=VECTOR('',#288,0.505786251317535);
#34=VECTOR('',#289,0.227303255586467);
#35=VECTOR('',#304,0.505786251317535);
#36=VECTOR('',#305,0.227303255586467);
#37=VECTOR('',#308,0.505786251317535);
#38=VECTOR('',#309,0.227303255586467);
#39=VECTOR('',#312,0.227303255586467);
#40=PLANE('',#240);
#41=PLANE('',#243);
#42=PLANE('',#244);
#43=PLANE('',#245);
#44=PLANE('',#251);
#45=PLANE('',#252);
#46=PLANE('',#253);
#47=PLANE('',#254);
#48=PLANE('',#255);
#49=FACE_BOUND('',#76,.T.);
#50=FACE_BOUND('',#79,.T.);
#51=FACE_BOUND('',#84,.T.);
#52=FACE_BOUND('',#86,.T.);
#53=FACE_BOUND('',#88,.T.);
#54=FACE_BOUND('',#94,.T.);
#55=CONICAL_SURFACE('',#238,0.20675,70.2042988064313);
#56=CONICAL_SURFACE('',#241,0.129425196850394,60.);
#57=CONICAL_SURFACE('',#246,0.422,45.);
#58=CONICAL_SURFACE('',#256,0.40225,45.);
#59=FACE_OUTER_BOUND('',#74,.T.);
#60=FACE_OUTER_BOUND('',#75,.T.);
#61=FACE_OUTER_BOUND('',#77,.T.);
#62=FACE_OUTER_BOUND('',#78,.T.);
#63=FACE_OUTER_BOUND('',#80,.T.);
#64=FACE_OUTER_BOUND('',#81,.T.);
#65=FACE_OUTER_BOUND('',#82,.T.);
#66=FACE_OUTER_BOUND('',#83,.T.);
#67=FACE_OUTER_BOUND('',#85,.T.);
#68=FACE_OUTER_BOUND('',#87,.T.);
#69=FACE_OUTER_BOUND('',#89,.T.);
#70=FACE_OUTER_BOUND('',#90,.T.);
#71=FACE_OUTER_BOUND('',#91,.T.);
#72=FACE_OUTER_BOUND('',#92,.T.);
#73=FACE_OUTER_BOUND('',#93,.T.);
#74=EDGE_LOOP('',(#160,#161,#162,#163,#164,#165));
#75=EDGE_LOOP('',(#166));
#76=EDGE_LOOP('',(#167,#168));
#77=EDGE_LOOP('',(#169,#170));
#78=EDGE_LOOP('',(#171,#172,#173,#174,#175,#176));
#79=EDGE_LOOP('',(#177));
#80=EDGE_LOOP('',(#178,#179,#180,#181));
#81=EDGE_LOOP('',(#182,#183,#184,#185));
#82=EDGE_LOOP('',(#186,#187,#188,#189));
#83=EDGE_LOOP('',(#190));
#84=EDGE_LOOP('',(#191));
#85=EDGE_LOOP('',(#192));
#86=EDGE_LOOP('',(#193));
#87=EDGE_LOOP('',(#194));
#88=EDGE_LOOP('',(#195));
#89=EDGE_LOOP('',(#196,#197,#198,#199));
#90=EDGE_LOOP('',(#200,#201,#202,#203));
#91=EDGE_LOOP('',(#204,#205,#206,#207));
#92=EDGE_LOOP('',(#208,#209,#210,#211,#212,#213));
#93=EDGE_LOOP('',(#214));
#94=EDGE_LOOP('',(#215));
#95=(
BOUNDED_CURVE()
B_SPLINE_CURVE(2,(#349,#350,#351),.UNSPECIFIED.,.F.,.F.)
B_SPLINE_CURVE_WITH_KNOTS((3,3),(-1.5707963267949,-1.22529616322615),
 .UNSPECIFIED.)
CURVE()
GEOMETRIC_REPRESENTATION_ITEM()
RATIONAL_B_SPLINE_CURVE((1.,0.985115775237963,1.))
REPRESENTATION_ITEM('')
);
#96=(
BOUNDED_CURVE()
B_SPLINE_CURVE(2,(#363,#364,#365),.UNSPECIFIED.,.F.,.F.)
B_SPLINE_CURVE_WITH_KNOTS((3,3),(0.119415811594757,0.753617064151245),
 .UNSPECIFIED.)
CURVE()
GEOMETRIC_REPRESENTATION_ITEM()
RATIONAL_B_SPLINE_CURVE((1.07437667497957,1.24058332502043,1.07437667497957))
REPRESENTATION_ITEM('')
);
#97=(
BOUNDED_CURVE()
B_SPLINE_CURVE(2,(#367,#368,#369),.UNSPECIFIED.,.F.,.F.)
B_SPLINE_CURVE_WITH_KNOTS((3,3),(0.119415811594757,0.753617064151245),
 .UNSPECIFIED.)
CURVE()
GEOMETRIC_REPRESENTATION_ITEM()
RATIONAL_B_SPLINE_CURVE((1.07437667497957,1.24058332502043,1.07437667497957))
REPRESENTATION_ITEM('')
);
#98=(
BOUNDED_CURVE()
B_SPLINE_CURVE(2,(#371,#372,#373),.UNSPECIFIED.,.F.,.F.)
B_SPLINE_CURVE_WITH_KNOTS((3,3),(0.119415811594757,0.753617064151245),
 .UNSPECIFIED.)
CURVE()
GEOMETRIC_REPRESENTATION_ITEM()
RATIONAL_B_SPLINE_CURVE((1.07437667497957,1.24058332502043,1.07437667497957))
REPRESENTATION_ITEM('')
);
#99=(
BOUNDED_CURVE()
B_SPLINE_CURVE(2,(#375,#376,#377),.UNSPECIFIED.,.F.,.F.)
B_SPLINE_CURVE_WITH_KNOTS((3,3),(0.119415811594757,0.753617064151245),
 .UNSPECIFIED.)
CURVE()
GEOMETRIC_REPRESENTATION_ITEM()
RATIONAL_B_SPLINE_CURVE((1.07437667497957,1.24058332502043,1.07437667497957))
REPRESENTATION_ITEM('')
);
#100=(
BOUNDED_CURVE()
B_SPLINE_CURVE(2,(#379,#380,#381),.UNSPECIFIED.,.F.,.F.)
B_SPLINE_CURVE_WITH_KNOTS((3,3),(0.119415811594757,0.753617064151245),
 .UNSPECIFIED.)
CURVE()
GEOMETRIC_REPRESENTATION_ITEM()
RATIONAL_B_SPLINE_CURVE((1.07437667497957,1.24058332502043,1.07437667497957))
REPRESENTATION_ITEM('')
);
#101=(
BOUNDED_CURVE()
B_SPLINE_CURVE(2,(#382,#383,#384),.UNSPECIFIED.,.F.,.F.)
B_SPLINE_CURVE_WITH_KNOTS((3,3),(0.119415811594756,0.753617064151244),
 .UNSPECIFIED.)
CURVE()
GEOMETRIC_REPRESENTATION_ITEM()
RATIONAL_B_SPLINE_CURVE((1.07437667497957,1.24058332502043,1.07437667497957))
REPRESENTATION_ITEM('')
);
#102=CIRCLE('',#234,0.030598007463526);
#103=CIRCLE('',#235,0.0624327361623048);
#104=CIRCLE('',#236,0.0624327361623048);
#105=CIRCLE('',#237,0.030598007463526);
#106=CIRCLE('',#239,0.3665);
#107=CIRCLE('',#242,0.258850393700788);
#108=CIRCLE('',#247,0.4065);
#109=CIRCLE('',#248,0.4375);
#110=CIRCLE('',#250,0.4375);
#111=VERTEX_POINT('',#345);
#112=VERTEX_POINT('',#346);
#113=VERTEX_POINT('',#348);
#114=VERTEX_POINT('',#352);
#115=VERTEX_POINT('',#357);
#116=VERTEX_POINT('',#361);
#117=VERTEX_POINT('',#362);
#118=VERTEX_POINT('',#366);
#119=VERTEX_POINT('',#370);
#120=VERTEX_POINT('',#374);
#121=VERTEX_POINT('',#378);
#122=VERTEX_POINT('',#385);
#123=VERTEX_POINT('',#388);
#124=VERTEX_POINT('',#390);
#125=VERTEX_POINT('',#394);
#126=VERTEX_POINT('',#398);
#127=VERTEX_POINT('',#402);
#128=VERTEX_POINT('',#404);
#129=VERTEX_POINT('',#407);
#130=VERTEX_POINT('',#411);
#131=VERTEX_POINT('',#415);
#132=EDGE_CURVE('',#111,#112,#102,.T.);
#133=EDGE_CURVE('',#112,#113,#95,.T.);
#134=EDGE_CURVE('',#113,#114,#103,.T.);
#135=EDGE_CURVE('',#114,#113,#104,.T.);
#136=EDGE_CURVE('',#112,#111,#105,.T.);
#137=EDGE_CURVE('',#115,#115,#106,.T.);
#138=EDGE_CURVE('',#116,#117,#96,.T.);
#139=EDGE_CURVE('',#118,#116,#97,.T.);
#140=EDGE_CURVE('',#119,#118,#98,.T.);
#141=EDGE_CURVE('',#120,#119,#99,.T.);
#142=EDGE_CURVE('',#121,#120,#100,.T.);
#143=EDGE_CURVE('',#117,#121,#101,.T.);
#144=EDGE_CURVE('',#122,#122,#107,.T.);
#145=EDGE_CURVE('',#119,#123,#16,.T.);
#146=EDGE_CURVE('',#124,#123,#17,.T.);
#147=EDGE_CURVE('',#120,#124,#18,.T.);
#148=EDGE_CURVE('',#118,#125,#19,.T.);
#149=EDGE_CURVE('',#123,#125,#20,.T.);
#150=EDGE_CURVE('',#116,#126,#21,.T.);
#151=EDGE_CURVE('',#125,#126,#22,.T.);
#152=EDGE_CURVE('',#127,#127,#108,.T.);
#153=EDGE_CURVE('',#128,#128,#109,.T.);
#154=EDGE_CURVE('',#129,#129,#110,.T.);
#155=EDGE_CURVE('',#117,#130,#23,.T.);
#156=EDGE_CURVE('',#126,#130,#24,.T.);
#157=EDGE_CURVE('',#121,#131,#25,.T.);
#158=EDGE_CURVE('',#130,#131,#26,.T.);
#159=EDGE_CURVE('',#131,#124,#27,.T.);
#160=ORIENTED_EDGE('',*,*,#132,.T.);
#161=ORIENTED_EDGE('',*,*,#133,.T.);
#162=ORIENTED_EDGE('',*,*,#134,.T.);
#163=ORIENTED_EDGE('',*,*,#135,.T.);
#164=ORIENTED_EDGE('',*,*,#133,.F.);
#165=ORIENTED_EDGE('',*,*,#136,.T.);
#166=ORIENTED_EDGE('',*,*,#137,.F.);
#167=ORIENTED_EDGE('',*,*,#135,.F.);
#168=ORIENTED_EDGE('',*,*,#134,.F.);
#169=ORIENTED_EDGE('',*,*,#132,.F.);
#170=ORIENTED_EDGE('',*,*,#136,.F.);
#171=ORIENTED_EDGE('',*,*,#138,.F.);
#172=ORIENTED_EDGE('',*,*,#139,.F.);
#173=ORIENTED_EDGE('',*,*,#140,.F.);
#174=ORIENTED_EDGE('',*,*,#141,.F.);
#175=ORIENTED_EDGE('',*,*,#142,.F.);
#176=ORIENTED_EDGE('',*,*,#143,.F.);
#177=ORIENTED_EDGE('',*,*,#144,.F.);
#178=ORIENTED_EDGE('',*,*,#141,.T.);
#179=ORIENTED_EDGE('',*,*,#145,.T.);
#180=ORIENTED_EDGE('',*,*,#146,.F.);
#181=ORIENTED_EDGE('',*,*,#147,.F.);
#182=ORIENTED_EDGE('',*,*,#140,.T.);
#183=ORIENTED_EDGE('',*,*,#148,.T.);
#184=ORIENTED_EDGE('',*,*,#149,.F.);
#185=ORIENTED_EDGE('',*,*,#145,.F.);
#186=ORIENTED_EDGE('',*,*,#139,.T.);
#187=ORIENTED_EDGE('',*,*,#150,.T.);
#188=ORIENTED_EDGE('',*,*,#151,.F.);
#189=ORIENTED_EDGE('',*,*,#148,.F.);
#190=ORIENTED_EDGE('',*,*,#152,.T.);
#191=ORIENTED_EDGE('',*,*,#153,.T.);
#192=ORIENTED_EDGE('',*,*,#154,.T.);
#193=ORIENTED_EDGE('',*,*,#153,.F.);
#194=ORIENTED_EDGE('',*,*,#152,.F.);
#195=ORIENTED_EDGE('',*,*,#144,.T.);
#196=ORIENTED_EDGE('',*,*,#138,.T.);
#197=ORIENTED_EDGE('',*,*,#155,.T.);
#198=ORIENTED_EDGE('',*,*,#156,.F.);
#199=ORIENTED_EDGE('',*,*,#150,.F.);
#200=ORIENTED_EDGE('',*,*,#143,.T.);
#201=ORIENTED_EDGE('',*,*,#157,.T.);
#202=ORIENTED_EDGE('',*,*,#158,.F.);
#203=ORIENTED_EDGE('',*,*,#155,.F.);
#204=ORIENTED_EDGE('',*,*,#142,.T.);
#205=ORIENTED_EDGE('',*,*,#147,.T.);
#206=ORIENTED_EDGE('',*,*,#159,.F.);
#207=ORIENTED_EDGE('',*,*,#157,.F.);
#208=ORIENTED_EDGE('',*,*,#156,.T.);
#209=ORIENTED_EDGE('',*,*,#158,.T.);
#210=ORIENTED_EDGE('',*,*,#159,.T.);
#211=ORIENTED_EDGE('',*,*,#146,.T.);
#212=ORIENTED_EDGE('',*,*,#149,.T.);
#213=ORIENTED_EDGE('',*,*,#151,.T.);
#214=ORIENTED_EDGE('',*,*,#154,.F.);
#215=ORIENTED_EDGE('',*,*,#137,.T.);
#216=(
BOUNDED_SURFACE()
B_SPLINE_SURFACE(2,2,((#318,#319,#320,#321,#322,#323,#324,#325,#326),(#327,
#328,#329,#330,#331,#332,#333,#334,#335),(#336,#337,#338,#339,#340,#341,
#342,#343,#344)),.UNSPECIFIED.,.F.,.T.,.F.)
B_SPLINE_SURFACE_WITH_KNOTS((3,3),(3,2,2,2,3),(1.22529616322615,1.5707963267949),
(-3.14159265358979,-1.5707963267949,0.,1.5707963267949,3.14159265358979),
 .UNSPECIFIED.)
GEOMETRIC_REPRESENTATION_ITEM()
RATIONAL_B_SPLINE_SURFACE(((1.,0.707106781186548,1.,0.707106781186548,1.,
0.707106781186548,1.,0.707106781186548,1.),(0.985115775237963,0.696582044924607,
0.985115775237963,0.696582044924607,0.985115775237963,0.696582044924607,
0.985115775237963,0.696582044924607,0.985115775237963),(1.,0.707106781186548,
1.,0.707106781186548,1.,0.707106781186548,1.,0.707106781186548,1.)))
REPRESENTATION_ITEM('')
SURFACE()
);
#217=ADVANCED_FACE('',(#59),#216,.F.);
#218=ADVANCED_FACE('',(#60,#49),#55,.T.);
#219=ADVANCED_FACE('',(#61),#40,.T.);
#220=ADVANCED_FACE('',(#62,#50),#56,.F.);
#221=ADVANCED_FACE('',(#63),#41,.F.);
#222=ADVANCED_FACE('',(#64),#42,.F.);
#223=ADVANCED_FACE('',(#65),#43,.F.);
#224=ADVANCED_FACE('',(#66,#51),#57,.T.);
#225=ADVANCED_FACE('',(#67,#52),#15,.T.);
#226=ADVANCED_FACE('',(#68,#53),#44,.F.);
#227=ADVANCED_FACE('',(#69),#45,.F.);
#228=ADVANCED_FACE('',(#70),#46,.F.);
#229=ADVANCED_FACE('',(#71),#47,.F.);
#230=ADVANCED_FACE('',(#72),#48,.T.);
#231=ADVANCED_FACE('',(#73,#54),#58,.T.);
#232=CLOSED_SHELL('',(#217,#218,#219,#220,#221,#222,#223,#224,#225,#226,
#227,#228,#229,#230,#231));
#233=AXIS2_PLACEMENT_3D('placement',#317,#257,#258);
#234=AXIS2_PLACEMENT_3D('',#347,#259,#260);
#235=AXIS2_PLACEMENT_3D('',#353,#261,#262);
#236=AXIS2_PLACEMENT_3D('',#354,#263,#264);
#237=AXIS2_PLACEMENT_3D('',#355,#265,#266);
#238=AXIS2_PLACEMENT_3D('',#356,#267,#268);
#239=AXIS2_PLACEMENT_3D('',#358,#269,#270);
#240=AXIS2_PLACEMENT_3D('',#359,#271,#272);
#241=AXIS2_PLACEMENT_3D('',#360,#273,#274);
#242=AXIS2_PLACEMENT_3D('',#386,#275,#276);
#243=AXIS2_PLACEMENT_3D('',#387,#277,#278);
#244=AXIS2_PLACEMENT_3D('',#393,#282,#283);
#245=AXIS2_PLACEMENT_3D('',#397,#286,#287);
#246=AXIS2_PLACEMENT_3D('',#401,#290,#291);
#247=AXIS2_PLACEMENT_3D('',#403,#292,#293);
#248=AXIS2_PLACEMENT_3D('',#405,#294,#295);
#249=AXIS2_PLACEMENT_3D('',#406,#296,#297);
#250=AXIS2_PLACEMENT_3D('',#408,#298,#299);
#251=AXIS2_PLACEMENT_3D('',#409,#300,#301);
#252=AXIS2_PLACEMENT_3D('',#410,#302,#303);
#253=AXIS2_PLACEMENT_3D('',#414,#306,#307);
#254=AXIS2_PLACEMENT_3D('',#418,#310,#311);
#255=AXIS2_PLACEMENT_3D('',#420,#313,#314);
#256=AXIS2_PLACEMENT_3D('',#421,#315,#316);
#257=DIRECTION('axis',(0.,0.,1.));
#258=DIRECTION('refdir',(1.,0.,0.));
#259=DIRECTION('center_axis',(0.,0.,1.));
#260=DIRECTION('ref_axis',(1.,1.22464679914735E-16,0.));
#261=DIRECTION('center_axis',(0.,0.,-1.));
#262=DIRECTION('ref_axis',(1.,1.22464679914735E-16,0.));
#263=DIRECTION('center_axis',(0.,0.,-1.));
#264=DIRECTION('ref_axis',(1.,1.22464679914735E-16,0.));
#265=DIRECTION('center_axis',(0.,0.,1.));
#266=DIRECTION('ref_axis',(1.,1.22464679914735E-16,0.));
#267=DIRECTION('center_axis',(0.,0.,1.));
#268=DIRECTION('ref_axis',(-1.,0.,0.));
#269=DIRECTION('center_axis',(0.,0.,1.));
#270=DIRECTION('ref_axis',(-1.,0.,0.));
#271=DIRECTION('center_axis',(0.,0.,-1.));
#272=DIRECTION('ref_axis',(-1.,0.,0.));
#273=DIRECTION('center_axis',(2.42651257619569E-16,0.,1.));
#274=DIRECTION('ref_axis',(-1.,0.,0.));
#275=DIRECTION('center_axis',(0.,0.,-1.));
#276=DIRECTION('ref_axis',(-1.,0.,0.));
#277=DIRECTION('center_axis',(1.,-4.80740671595891E-16,0.));
#278=DIRECTION('ref_axis',(0.,0.,-1.));
#279=DIRECTION('',(0.,0.,-1.));
#280=DIRECTION('',(4.80740671595891E-16,1.,0.));
#281=DIRECTION('',(0.,0.,-1.));
#282=DIRECTION('center_axis',(0.5,0.866025403784439,0.));
#283=DIRECTION('ref_axis',(0.,0.,-1.));
#284=DIRECTION('',(0.,0.,-1.));
#285=DIRECTION('',(-0.866025403784438,0.5,0.));
#286=DIRECTION('center_axis',(-0.5,0.866025403784439,0.));
#287=DIRECTION('ref_axis',(0.,0.,1.));
#288=DIRECTION('',(0.,0.,-1.));
#289=DIRECTION('',(-0.866025403784439,-0.5,0.));
#290=DIRECTION('center_axis',(0.,0.,-1.));
#291=DIRECTION('ref_axis',(-1.,0.,0.));
#292=DIRECTION('center_axis',(0.,0.,-1.));
#293=DIRECTION('ref_axis',(-1.,0.,0.));
#294=DIRECTION('center_axis',(0.,0.,1.));
#295=DIRECTION('ref_axis',(-1.,0.,0.));
#296=DIRECTION('center_axis',(0.,0.,-1.));
#297=DIRECTION('ref_axis',(-1.,0.,0.));
#298=DIRECTION('center_axis',(0.,0.,1.));
#299=DIRECTION('ref_axis',(-1.,0.,0.));
#300=DIRECTION('center_axis',(0.,0.,-1.));
#301=DIRECTION('ref_axis',(-1.,0.,0.));
#302=DIRECTION('center_axis',(-1.,3.84592537276713E-16,0.));
#303=DIRECTION('ref_axis',(0.,0.,1.));
#304=DIRECTION('',(0.,0.,-1.));
#305=DIRECTION('',(-3.84592537276713E-16,-1.,0.));
#306=DIRECTION('center_axis',(-0.5,-0.866025403784438,0.));
#307=DIRECTION('ref_axis',(0.,0.,1.));
#308=DIRECTION('',(0.,0.,-1.));
#309=DIRECTION('',(0.866025403784438,-0.5,0.));
#310=DIRECTION('center_axis',(0.5,-0.866025403784439,0.));
#311=DIRECTION('ref_axis',(0.,0.,-1.));
#312=DIRECTION('',(0.866025403784439,0.5,0.));
#313=DIRECTION('center_axis',(0.,0.,1.));
#314=DIRECTION('ref_axis',(1.,0.,0.));
#315=DIRECTION('center_axis',(0.,0.,1.));
#316=DIRECTION('ref_axis',(-1.,0.,0.));
#317=CARTESIAN_POINT('',(0.,0.,0.));
#318=CARTESIAN_POINT('Ctrl Pts',(0.0624327361623048,0.,-1.05644518103704));
#319=CARTESIAN_POINT('Ctrl Pts',(0.0624327361623048,-0.0624327361623048,
-1.05644518103704));
#320=CARTESIAN_POINT('Ctrl Pts',(0.,-0.0624327361623048,-1.05644518103704));
#321=CARTESIAN_POINT('Ctrl Pts',(-0.0624327361623048,-0.0624327361623048,
-1.05644518103704));
#322=CARTESIAN_POINT('Ctrl Pts',(-0.0624327361623048,0.,-1.05644518103704));
#323=CARTESIAN_POINT('Ctrl Pts',(-0.0624327361623048,0.0624327361623048,
-1.05644518103704));
#324=CARTESIAN_POINT('Ctrl Pts',(0.,0.0624327361623048,-1.05644518103704));
#325=CARTESIAN_POINT('Ctrl Pts',(0.0624327361623048,0.0624327361623048,
-1.05644518103704));
#326=CARTESIAN_POINT('Ctrl Pts',(0.0624327361623048,0.,-1.05644518103704));
#327=CARTESIAN_POINT('Ctrl Pts',(0.0469999999999997,0.,-1.062));
#328=CARTESIAN_POINT('Ctrl Pts',(0.0469999999999997,-0.0469999999999997,
-1.062));
#329=CARTESIAN_POINT('Ctrl Pts',(0.,-0.0469999999999997,-1.062));
#330=CARTESIAN_POINT('Ctrl Pts',(-0.0469999999999997,-0.0469999999999997,
-1.062));
#331=CARTESIAN_POINT('Ctrl Pts',(-0.0469999999999997,0.,-1.062));
#332=CARTESIAN_POINT('Ctrl Pts',(-0.0469999999999997,0.0469999999999997,
-1.062));
#333=CARTESIAN_POINT('Ctrl Pts',(0.,0.0469999999999997,-1.062));
#334=CARTESIAN_POINT('Ctrl Pts',(0.0469999999999997,0.0469999999999997,
-1.062));
#335=CARTESIAN_POINT('Ctrl Pts',(0.0469999999999997,0.,-1.062));
#336=CARTESIAN_POINT('Ctrl Pts',(0.030598007463526,0.,-1.062));
#337=CARTESIAN_POINT('Ctrl Pts',(0.030598007463526,-0.030598007463526,-1.062));
#338=CARTESIAN_POINT('Ctrl Pts',(0.,-0.030598007463526,-1.062));
#339=CARTESIAN_POINT('Ctrl Pts',(-0.030598007463526,-0.030598007463526,
-1.062));
#340=CARTESIAN_POINT('Ctrl Pts',(-0.030598007463526,0.,-1.062));
#341=CARTESIAN_POINT('Ctrl Pts',(-0.030598007463526,0.030598007463526,-1.062));
#342=CARTESIAN_POINT('Ctrl Pts',(0.,0.030598007463526,-1.062));
#343=CARTESIAN_POINT('Ctrl Pts',(0.030598007463526,0.030598007463526,-1.062));
#344=CARTESIAN_POINT('Ctrl Pts',(0.030598007463526,0.,-1.062));
#345=CARTESIAN_POINT('',(-0.030598007463526,-7.49435038009878E-18,-1.062));
#346=CARTESIAN_POINT('',(0.030598007463526,0.,-1.062));
#347=CARTESIAN_POINT('Origin',(0.,0.,-1.062));
#348=CARTESIAN_POINT('',(0.0624327361623048,0.,-1.05644518103704));
#349=CARTESIAN_POINT('Ctrl Pts',(0.030598007463526,0.,-1.062));
#350=CARTESIAN_POINT('Ctrl Pts',(0.0469999999999997,0.,-1.062));
#351=CARTESIAN_POINT('Ctrl Pts',(0.0624327361623048,0.,-1.05644518103704));
#352=CARTESIAN_POINT('',(-0.0624327361623048,0.,-1.05644518103704));
#353=CARTESIAN_POINT('Origin',(0.,0.,-1.05644518103704));
#354=CARTESIAN_POINT('Origin',(0.,0.,-1.05644518103704));
#355=CARTESIAN_POINT('Origin',(0.,0.,-1.062));
#356=CARTESIAN_POINT('Origin',(0.,0.,-1.0045));
#357=CARTESIAN_POINT('',(-0.3665,0.,-0.947));
#358=CARTESIAN_POINT('Origin',(0.,0.,-0.947));
#359=CARTESIAN_POINT('Origin',(0.,0.,-1.062));
#360=CARTESIAN_POINT('Origin',(-1.81317930433513E-17,0.,-0.0747236722414951));
#361=CARTESIAN_POINT('',(-0.196850393700787,0.113651627793233,-0.0182137486824653));
#362=CARTESIAN_POINT('',(-0.196850393700787,-0.113651627793233,-0.0182137486824653));
#363=CARTESIAN_POINT('Ctrl Pts',(-0.196850393700787,0.113651627793233,-0.0182137486824653));
#364=CARTESIAN_POINT('Ctrl Pts',(-0.196850393700787,2.95667908354283E-14,
-0.0510221476325414));
#365=CARTESIAN_POINT('Ctrl Pts',(-0.196850393700787,-0.113651627793233,
-0.0182137486824653));
#366=CARTESIAN_POINT('',(1.27857682293E-17,0.227303255586467,-0.0182137486824653));
#367=CARTESIAN_POINT('Ctrl Pts',(1.27857682293E-17,0.227303255586467,-0.0182137486824653));
#368=CARTESIAN_POINT('Ctrl Pts',(-0.0984251968503681,0.170477441689865,
-0.0510221476325414));
#369=CARTESIAN_POINT('Ctrl Pts',(-0.196850393700787,0.113651627793233,-0.0182137486824653));
#370=CARTESIAN_POINT('',(0.196850393700787,0.113651627793233,-0.0182137486824653));
#371=CARTESIAN_POINT('Ctrl Pts',(0.196850393700787,0.113651627793233,-0.0182137486824653));
#372=CARTESIAN_POINT('Ctrl Pts',(0.0984251968504194,0.170477441689835,-0.0510221476325415));
#373=CARTESIAN_POINT('Ctrl Pts',(1.27857682293E-17,0.227303255586467,-0.0182137486824653));
#374=CARTESIAN_POINT('',(0.196850393700787,-0.113651627793234,-0.0182137486824653));
#375=CARTESIAN_POINT('Ctrl Pts',(0.196850393700787,-0.113651627793234,-0.0182137486824653));
#376=CARTESIAN_POINT('Ctrl Pts',(0.196850393700787,-2.96596736672129E-14,
-0.0510221476325415));
#377=CARTESIAN_POINT('Ctrl Pts',(0.196850393700787,0.113651627793233,-0.0182137486824653));
#378=CARTESIAN_POINT('',(-1.14961185315168E-16,-0.227303255586467,-0.0182137486824653));
#379=CARTESIAN_POINT('Ctrl Pts',(-1.14961185315168E-16,-0.227303255586467,
-0.0182137486824653));
#380=CARTESIAN_POINT('Ctrl Pts',(0.0984251968503681,-0.170477441689865,
-0.0510221476325414));
#381=CARTESIAN_POINT('Ctrl Pts',(0.196850393700787,-0.113651627793234,-0.0182137486824653));
#382=CARTESIAN_POINT('Ctrl Pts',(-0.196850393700787,-0.113651627793233,
-0.0182137486824653));
#383=CARTESIAN_POINT('Ctrl Pts',(-0.0984251968504194,-0.170477441689835,
-0.0510221476325414));
#384=CARTESIAN_POINT('Ctrl Pts',(-1.14961185315168E-16,-0.227303255586467,
-0.0182137486824653));
#385=CARTESIAN_POINT('',(-0.258850393700787,0.,0.));
#386=CARTESIAN_POINT('Origin',(-4.85273686774737E-33,0.,0.));
#387=CARTESIAN_POINT('Origin',(0.196850393700787,-0.113651627793234,0.));
#388=CARTESIAN_POINT('',(0.196850393700787,0.113651627793233,-0.524));
#389=CARTESIAN_POINT('',(0.196850393700787,0.113651627793233,0.));
#390=CARTESIAN_POINT('',(0.196850393700787,-0.113651627793234,-0.524));
#391=CARTESIAN_POINT('',(0.196850393700787,0.113651627793233,-0.524));
#392=CARTESIAN_POINT('',(0.196850393700787,-0.113651627793234,0.));
#393=CARTESIAN_POINT('Origin',(0.196850393700787,0.113651627793233,0.));
#394=CARTESIAN_POINT('',(1.27857682293E-17,0.227303255586467,-0.524));
#395=CARTESIAN_POINT('',(1.27857682293E-17,0.227303255586467,0.));
#396=CARTESIAN_POINT('',(1.27857682293E-17,0.227303255586467,-0.524));
#397=CARTESIAN_POINT('Origin',(1.27857682293E-17,0.227303255586467,0.));
#398=CARTESIAN_POINT('',(-0.196850393700787,0.113651627793233,-0.524));
#399=CARTESIAN_POINT('',(-0.196850393700787,0.113651627793233,0.));
#400=CARTESIAN_POINT('',(-0.196850393700787,0.113651627793233,-0.524));
#401=CARTESIAN_POINT('Origin',(0.,0.,-0.0155));
#402=CARTESIAN_POINT('',(0.4065,-4.97818923853399E-17,0.));
#403=CARTESIAN_POINT('Origin',(0.,0.,0.));
#404=CARTESIAN_POINT('',(0.4375,5.35782974626967E-17,-0.031));
#405=CARTESIAN_POINT('Origin',(0.,0.,-0.031));
#406=CARTESIAN_POINT('Origin',(0.,0.,0.));
#407=CARTESIAN_POINT('',(0.4375,5.3576527979729E-17,-0.876));
#408=CARTESIAN_POINT('Origin',(0.,0.,-0.876));
#409=CARTESIAN_POINT('Origin',(0.,0.,0.));
#410=CARTESIAN_POINT('Origin',(-0.196850393700787,0.113651627793233,0.));
#411=CARTESIAN_POINT('',(-0.196850393700787,-0.113651627793233,-0.524));
#412=CARTESIAN_POINT('',(-0.196850393700787,-0.113651627793233,0.));
#413=CARTESIAN_POINT('',(-0.196850393700787,-0.113651627793233,-0.524));
#414=CARTESIAN_POINT('Origin',(-0.196850393700787,-0.113651627793233,0.));
#415=CARTESIAN_POINT('',(-1.14961185315168E-16,-0.227303255586467,-0.524));
#416=CARTESIAN_POINT('',(-1.14961185315168E-16,-0.227303255586467,0.));
#417=CARTESIAN_POINT('',(-1.14961185315168E-16,-0.227303255586467,-0.524));
#418=CARTESIAN_POINT('Origin',(-1.14961185315168E-16,-0.227303255586467,
0.));
#419=CARTESIAN_POINT('',(0.196850393700787,-0.113651627793234,-0.524));
#420=CARTESIAN_POINT('Origin',(0.,-6.0762922040896E-17,-0.524));
#421=CARTESIAN_POINT('Origin',(0.,0.,-0.91125));
#422=UNCERTAINTY_MEASURE_WITH_UNIT(LENGTH_MEASURE(0.000393700787401575),
#426,'DISTANCE_ACCURACY_VALUE',
'Maximum model space distance between geometric entities at asserted c
onnectivities');
#423=UNCERTAINTY_MEASURE_WITH_UNIT(LENGTH_MEASURE(1.E-6),#427,
'DISTANCE_ACCURACY_VALUE',
'Maximum model space distance between geometric entities at asserted c
onnectivities');
#424=(
GEOMETRIC_REPRESENTATION_CONTEXT(3)
GLOBAL_UNCERTAINTY_ASSIGNED_CONTEXT((#422))
GLOBAL_UNIT_ASSIGNED_CONTEXT((#426,#432,#429))
REPRESENTATION_CONTEXT('','3D')
);
#425=(
GEOMETRIC_REPRESENTATION_CONTEXT(3)
GLOBAL_UNCERTAINTY_ASSIGNED_CONTEXT((#423))
GLOBAL_UNIT_ASSIGNED_CONTEXT((#427,#432,#429))
REPRESENTATION_CONTEXT('','3D')
);
#426=(
CONVERSION_BASED_UNIT('__CONSTANT UNIT inch',#428)
LENGTH_UNIT()
NAMED_UNIT(#431)
);
#427=(
LENGTH_UNIT()
NAMED_UNIT(*)
SI_UNIT(.MILLI.,.METRE.)
);
#428=LENGTH_MEASURE_WITH_UNIT(LENGTH_MEASURE(25.4),#427);
#429=(
NAMED_UNIT(*)
SI_UNIT($,.STERADIAN.)
SOLID_ANGLE_UNIT()
);
#430=DIMENSIONAL_EXPONENTS(0.,0.,0.,0.,0.,0.,0.);
#431=DIMENSIONAL_EXPONENTS(1.,0.,0.,0.,0.,0.,0.);
#432=(
CONVERSION_BASED_UNIT('degree',#434)
NAMED_UNIT(#430)
PLANE_ANGLE_UNIT()
);
#433=(
NAMED_UNIT(*)
PLANE_ANGLE_UNIT()
SI_UNIT($,.RADIAN.)
);
#434=PLANE_ANGLE_MEASURE_WITH_UNIT(PLANE_ANGLE_MEASURE(0.01745329252),#433);
#435=SHAPE_DEFINITION_REPRESENTATION(#436,#437);
#436=PRODUCT_DEFINITION_SHAPE('',$,#439);
#437=SHAPE_REPRESENTATION('',(#233),#424);
#438=DESIGN_CONTEXT('part definition',#443,'design');
#439=PRODUCT_DEFINITION('14141-M','14141-M',#440,#438);
#440=PRODUCT_DEFINITION_FORMATION('',$,#445);
#441=PRODUCT_RELATED_PRODUCT_CATEGORY('14141-M','14141-M',(#445));
#442=APPLICATION_PROTOCOL_DEFINITION('international standard',
'ap203_configuration_controlled_3d_design_of_mechanical_parts_and_asse
mblies_mim_lf',2004,#443);
#443=APPLICATION_CONTEXT(
'Configuration Controlled 3D Design of Mechanical Parts and Assemblies');
#444=MECHANICAL_CONTEXT('part definition',#443,'mechanical');
#445=PRODUCT('14141-M','14141-M',$,(#444));
#446=PRESENTATION_STYLE_ASSIGNMENT((#447));
#447=SURFACE_STYLE_USAGE(.BOTH.,#448);
#448=SURFACE_SIDE_STYLE($,(#449));
#449=SURFACE_STYLE_FILL_AREA(#450);
#450=FILL_AREA_STYLE($,(#451));
#451=FILL_AREA_STYLE_COLOUR($,#452);
#452=COLOUR_RGB('',0.949019607843137,0.925490196078431,0.933333333333333);
ENDSEC;
END-ISO-10303-21;
